Increase volume for maximum flavor.
[Return]
Posting mode: Reply
Name
Email
Subject   (reply to 1028)
Message
BB Code
Captcha
File
File URL
Embed   Help
Password  (for post and file deletion)
  • Supported file types are: FLAC, FLV, GIF, JPEG, JPG, M4A, MP3, MP4, OGG, PNG, RAR, SWF, ZIP
  • Maximum file size allowed is 7000 KB.
  • Images greater than 260x260 pixels will be thumbnailed.
  • Currently 885 unique user posts.
  • board catalog

File 130687461321.jpg - (630.94KB , 1132x1200 , nagato-yuki-1-haruhi_1_ib4f.jpg )
1028 No. 1028 [Edit]
So, I'm starting to teach myself the guitar. What are some anime/game tunes that are easy to play and have learning materials available?
>> No. 1029 [Edit]
this one is easy to play and you'll probably recognize it
http://tabs.ultimate-guitar.com/e/evangelion/cruel_angels_thesis_tab.htm
>> No. 1030 [Edit]
>>1029
Oh sweet! NGE! I can't wait to-
wha?

E -----1---1-1-1-6-4-3-1-3-|-3-6-8-----6-6-3-6-6-8-|
B -1-4---4-----------------|-------6-4-------------|
G -------------------------|-----------------------|
D -------------------------|-----------------------|
A -------------------------|-----------------------|
E -------------------------|-----------------------| x2

E -11-------11-11-13----------15-16-15-13----13-15-16-15----|
B ----11-11----------11-11-11-------------16-------------13-|
G ----------------------------------------------------------|
D ----------------------------------------------------------|
A ----------------------------------------------------------|
E ----------------------------------------------------------|

E ----------------------13-16-15-13----15-15-13-12-13-------------|
B -13-15-16-16-15-15-16-------------16----------------13-13-15-15-|
G ----------------------------------------------------------------|
D ----------------------------------------------------------------|
A ----------------------------------------------------------------|
E ----------------------------------------------------------------|

E -11-------11-11-13----------15-16-15-13----13-15-16-15----|
B ----11-11----------11-11-11-------------16-------------13-|
G ----------------------------------------------------------|
D ----------------------------------------------------------|
A ----------------------------------------------------------|
E ----------------------------------------------------------|



What the hell is this? I know Tab but this mess of numbers means nothing to me.
>> No. 1031 [Edit]
the top row of the tab represents the bottom string of the guitar
the number represents the fret that you play the note on, each number being a seperate note. this tab is simply a sequence of single notes.

Post edited on 31st May 2011, 2:15pm
>> No. 1034 [Edit]
>>1031
Ohh. That makes a little sense. Thank you.
>> No. 1036 [Edit]
>>1031
So it is more like plucking or picking than strumming, yes?
>> No. 1037 [Edit]
>>1036
In this instance. If you see tabs with multiple notes at the same time, it's probably strummed.
>> No. 1038 [Edit]
>>1036
oh, yeah you would play that by picking, i learnt on electric guitar, i found playing songs like this easier to start off with. if you want to strum something you'd need a tab with chords but i cant think of any beginner ones off the top of my head
>> No. 1061 [Edit]
 
Hi OP, I'm not sure if you have watched Angel Beats or not, but you can give 'My Song' sang by GDM (a band from the anime) a try. It's pretty easy, the chords are simple too. You can try figuring out the strumming patterns yourself, it's not so difficult.

http://tabs.ultimate-guitar.com/m/misc_unsigned_bands/girls_dead_monster_-_my_song_crd.htm

I've also attached a video of the guitar cover of the song. Hope this helps.
>> No. 1062 [Edit]
 
I have another one for you, it's based on a game called Gitaroo Man. I've embedded it for you, it has some pretty sweet tunes. It's also great for beginners. Try figuring out yourself on how to read the tabs.

There's 2 different tabs for this one, I suggest you pick Guitar 1's tabs for it. Good luck practicing it! And do not give up!
>> No. 1140 [Edit]
Look up a program called Guitar Pro. You can import MIDIs (like from vgmusic.com) to learn how to play songs.

The MIDIs aren't written for guitar tabs normally, so you have to fiddle around with them a little to make them playable. And the people making them get them wrong sometimes. But it's a hell of a lot better than nothing if you can't learn by ear yet.
>> No. 1141 [Edit]
 
Fake Wings sounds easy

View catalog

Delete post []
Password  
Report post
Reason  


[Home] [Manage]



[ Rules ] [ an / foe / ma / mp3 / vg / vn ] [ cr / fig / navi ] [ mai / ot / so / tat ] [ arc / ddl / irc / lol / ns / pic ] [ home ]